ISO-10303-21;
HEADER;
FILE_DESCRIPTION (( 'STEP AP203' ),
    '1' );
FILE_NAME ('Q-AZHWP-10-355-M.STEP',
    '2020-12-22T09:05:38',
    ( '' ),
    ( '' ),
    'SwSTEP 2.0',
    'SolidWorks 2020',
    '' );
FILE_SCHEMA (( 'CONFIG_CONTROL_DESIGN' ));
ENDSEC;

DATA;
#1 = ORIENTED_EDGE ( 'NONE', *, *, #270, .F. ) ;
#2 = LINE ( 'NONE', #47, #95 ) ;
#3 = EDGE_LOOP ( 'NONE', ( #202, #268, #25, #110 ) ) ;
#4 = VERTEX_POINT ( 'NONE', #323 ) ;
#5 = PERSON_AND_ORGANIZATION_ROLE ( 'classification_officer' ) ;
#6 = DIRECTION ( 'NONE',  ( -1.000000000000000000, -0.000000000000000000, -0.000000000000000000 ) ) ;
#7 = ORIENTED_EDGE ( 'NONE', *, *, #11, .F. ) ;
#8 = DATE_TIME_ROLE ( 'creation_date' ) ;
#9 = CARTESIAN_POINT ( 'NONE',  ( 1.250000000000000444, 0.000000000000000000, 0.000000000000000000 ) ) ;
#10 = PERSON_AND_ORGANIZATION ( #98, #248 ) ;
#11 = EDGE_CURVE ( 'NONE', #212, #246, #66, .T. ) ;
#12 = EDGE_LOOP ( 'NONE', ( #210, #169 ) ) ;
#13 = CARTESIAN_POINT ( 'NONE',  ( 3.000000000000000000, 1.555301434917138433E-15, -12.69999999999999929 ) ) ;
#14 = CARTESIAN_POINT ( 'NONE',  ( -1.614212418857619014, 0.000000000000000000, 5.000000000000000888 ) ) ;
#15 = LOCAL_TIME ( 17, 5, 38.00000000000000000, #113 ) ;
#16 = ADVANCED_FACE ( 'NONE', ( #245 ), #262, .T. ) ;
#17 = DIRECTION ( 'NONE',  ( -1.000000000000000000, -0.000000000000000000, -0.000000000000000000 ) ) ;
#18 = CARTESIAN_POINT ( 'NONE',  ( -3.000000000000000000, 5.000000000000000000, 0.000000000000000000 ) ) ;
#19 = CARTESIAN_POINT ( 'NONE',  ( -3.000000000000000000, 0.000000000000000000, 0.000000000000000000 ) ) ;
#20 = CYLINDRICAL_SURFACE ( 'NONE', #164, 5.000000000000000888 ) ;
#21 = EDGE_CURVE ( 'NONE', #85, #187, #324, .T. ) ;
#22 = DIRECTION ( 'NONE',  ( 1.000000000000000000, 0.000000000000000000, 0.000000000000000000 ) ) ;
#23 = VERTEX_POINT ( 'NONE', #13 ) ;
#24 = DIRECTION ( 'NONE',  ( -1.000000000000000000, -0.000000000000000000, -0.000000000000000000 ) ) ;
#25 = ORIENTED_EDGE ( 'NONE', *, *, #291, .T. ) ;
#26 = AXIS2_PLACEMENT_3D ( 'NONE', #100, #195, #44 ) ;
#27 = CC_DESIGN_PERSON_AND_ORGANIZATION_ASSIGNMENT ( #261, #87, ( #28 ) ) ;
#28 = PRODUCT_DEFINITION_FORMATION_WITH_SPECIFIED_SOURCE ( 'ANY', '', #61, .NOT_KNOWN. ) ;
#29 = AXIS2_PLACEMENT_3D ( 'NONE', #325, #90, #298 ) ;
#30 = VERTEX_POINT ( 'NONE', #264 ) ;
#31 = CARTESIAN_POINT ( 'NONE',  ( -3.000000000000000000, 0.000000000000000000, 0.000000000000000000 ) ) ;
#32 = ADVANCED_FACE ( 'NONE', ( #117, #296 ), #216, .F. ) ;
#33 = CALENDAR_DATE ( 2020, 22, 12 ) ;
#34 = CARTESIAN_POINT ( 'NONE',  ( -3.000000000000000000, 0.000000000000000000, 5.000000000000000000 ) ) ;
#35 = ORIENTED_EDGE ( 'NONE', *, *, #251, .F. ) ;
#36 = AXIS2_PLACEMENT_3D ( 'NONE', #121, #250, #219 ) ;
#37 = ORIENTED_EDGE ( 'NONE', *, *, #191, .F. ) ;
#38 = LOCAL_TIME ( 17, 5, 38.00000000000000000, #62 ) ;
#39 = DIRECTION ( 'NONE',  ( -1.000000000000000000, -0.000000000000000000, -0.000000000000000000 ) ) ;
#40 = EDGE_CURVE ( 'NONE', #246, #212, #52, .T. ) ;
#41 = CARTESIAN_POINT ( 'NONE',  ( -1.250000000000000222, 0.000000000000000000, 5.000000000000000888 ) ) ;
#42 = LINE ( 'NONE', #68, #322 ) ;
#43 = DIRECTION ( 'NONE',  ( -1.000000000000000000, -0.000000000000000000, -0.000000000000000000 ) ) ;
#44 = DIRECTION ( 'NONE',  ( 0.000000000000000000, 0.000000000000000000, 1.000000000000000000 ) ) ;
#45 =( GEOMETRIC_REPRESENTATION_CONTEXT ( 3 ) GLOBAL_UNCERTAINTY_ASSIGNED_CONTEXT ( ( #308 ) ) GLOBAL_UNIT_ASSIGNED_CONTEXT ( ( #73, #204, #255 ) ) REPRESENTATION_CONTEXT ( 'NONE', 'WORKASPACE' ) );
#46 = VECTOR ( 'NONE', #175, 1000.000000000000000 ) ;
#47 = CARTESIAN_POINT ( 'NONE',  ( -1.614212418857619014, 0.000000000000000000, 12.69999999999999929 ) ) ;
#48 = PLANE ( 'NONE',  #243 ) ;
#49 = ORIENTED_EDGE ( 'NONE', *, *, #208, .F. ) ;
#50 = DIRECTION ( 'NONE',  ( -1.000000000000000000, -0.000000000000000000, -0.000000000000000000 ) ) ;
#51 = AXIS2_PLACEMENT_3D ( 'NONE', #220, #43, #148 ) ;
#52 = CIRCLE ( 'NONE', #153, 5.000000000000000000 ) ;
#53 = CARTESIAN_POINT ( 'NONE',  ( -1.614212418857619014, 6.123233995736767268E-16, -5.000000000000000888 ) ) ;
#54 = ORIENTED_EDGE ( 'NONE', *, *, #304, .F. ) ;
#55 = CALENDAR_DATE ( 2020, 22, 12 ) ;
#56 = DIRECTION ( 'NONE',  ( -1.000000000000000000, -0.000000000000000000, -0.000000000000000000 ) ) ;
#57 = PERSON_AND_ORGANIZATION_ROLE ( 'design_supplier' ) ;
#58 = SECURITY_CLASSIFICATION ( '', '', #326 ) ;
#59 = AXIS2_PLACEMENT_3D ( 'NONE', #266, #166, #188 ) ;
#60 = DIRECTION ( 'NONE',  ( 0.000000000000000000, 0.000000000000000000, 1.000000000000000000 ) ) ;
#61 = PRODUCT ( 'Q-AZHWP-10-355-M', 'Q-AZHWP-10-355-M', '', ( #75 ) ) ;
#62 = COORDINATED_UNIVERSAL_TIME_OFFSET ( 8, 0, .AHEAD. ) ;
#63 = CC_DESIGN_DATE_AND_TIME_ASSIGNMENT ( #84, #118, ( #58 ) ) ;
#64 = CALENDAR_DATE ( 2020, 22, 12 ) ;
#65 = EDGE_LOOP ( 'NONE', ( #155, #137, #307, #170 ) ) ;
#66 = CIRCLE ( 'NONE', #253, 5.000000000000000000 ) ;
#67 = CARTESIAN_POINT ( 'NONE',  ( -3.000000000000000000, 6.123233995736766282E-16, -5.000000000000000000 ) ) ;
#68 = CARTESIAN_POINT ( 'NONE',  ( -1.614212418857619014, 6.123233995736767268E-16, -5.000000000000000888 ) ) ;
#69 = DIRECTION ( 'NONE',  ( 0.000000000000000000, 0.000000000000000000, -1.000000000000000000 ) ) ;
#70 = EDGE_CURVE ( 'NONE', #81, #30, #174, .T. ) ;
#71 = DIRECTION ( 'NONE',  ( -1.000000000000000000, -0.000000000000000000, -0.000000000000000000 ) ) ;
#72 = APPROVAL ( #265, 'UNSPECIFIED' ) ;
#73 =( LENGTH_UNIT ( ) NAMED_UNIT ( * ) SI_UNIT ( .MILLI., .METRE. ) );
#74 = VECTOR ( 'NONE', #223, 1000.000000000000000 ) ;
#75 = MECHANICAL_CONTEXT ( 'NONE', #141, 'mechanical' ) ;
#76 = ADVANCED_FACE ( 'NONE', ( #120 ), #218, .T. ) ;
#77 = DIRECTION ( 'NONE',  ( -1.000000000000000000, -0.000000000000000000, -0.000000000000000000 ) ) ;
#78 = ORIENTED_EDGE ( 'NONE', *, *, #105, .T. ) ;
#79 = ORIENTED_EDGE ( 'NONE', *, *, #270, .T. ) ;
#80 = CYLINDRICAL_SURFACE ( 'NONE', #182, 5.000000000000000888 ) ;
#81 = VERTEX_POINT ( 'NONE', #162 ) ;
#82 = APPLICATION_CONTEXT ( 'configuration controlled 3d designs of mechanical parts and assemblies' ) ;
#83 = COORDINATED_UNIVERSAL_TIME_OFFSET ( 8, 0, .AHEAD. ) ;
#84 = DATE_AND_TIME ( #211, #15 ) ;
#85 = VERTEX_POINT ( 'NONE', #34 ) ;
#86 = EDGE_CURVE ( 'NONE', #309, #254, #214, .T. ) ;
#87 = PERSON_AND_ORGANIZATION_ROLE ( 'creator' ) ;
#88 = EDGE_CURVE ( 'NONE', #23, #309, #199, .T. ) ;
#89 = DIRECTION ( 'NONE',  ( 0.000000000000000000, 0.000000000000000000, 1.000000000000000000 ) ) ;
#90 = DIRECTION ( 'NONE',  ( -1.000000000000000000, 0.000000000000000000, -0.000000000000000000 ) ) ;
#91 = PERSON_AND_ORGANIZATION ( #98, #248 ) ;
#92 = CARTESIAN_POINT ( 'NONE',  ( -1.614212418857619014, 0.000000000000000000, 0.000000000000000000 ) ) ;
#93 = ADVANCED_FACE ( 'NONE', ( #247 ), #20, .F. ) ;
#94 = DIRECTION ( 'NONE',  ( -1.000000000000000000, -0.000000000000000000, -0.000000000000000000 ) ) ;
#95 = VECTOR ( 'NONE', #77, 1000.000000000000000 ) ;
#96 = LOCAL_TIME ( 17, 5, 38.00000000000000000, #165 ) ;
#97 = AXIS2_PLACEMENT_3D ( 'NONE', #271, #39, #143 ) ;
#98 = PERSON ( 'UNSPECIFIED', 'UNSPECIFIED', 'UNSPECIFIED', ('UNSPECIFIED'), ('UNSPECIFIED'), ('UNSPECIFIED') ) ;
#99 = CARTESIAN_POINT ( 'NONE',  ( -1.614212418857619014, 1.555301434917138433E-15, -12.69999999999999929 ) ) ;
#100 = CARTESIAN_POINT ( 'NONE',  ( -1.614212418857619014, 0.000000000000000000, 0.000000000000000000 ) ) ;
#101 = AXIS2_PLACEMENT_3D ( 'NONE', #257, #285, #305 ) ;
#102 = VECTOR ( 'NONE', #277, 1000.000000000000000 ) ;
#103 = CARTESIAN_POINT ( 'NONE',  ( -1.614212418857619014, 0.000000000000000000, 0.000000000000000000 ) ) ;
#104 = DIRECTION ( 'NONE',  ( 0.000000000000000000, 0.000000000000000000, 1.000000000000000000 ) ) ;
#105 = EDGE_CURVE ( 'NONE', #81, #246, #331, .T. ) ;
#106 = CARTESIAN_POINT ( 'NONE',  ( -1.614212418857619014, 0.000000000000000000, 0.000000000000000000 ) ) ;
#107 = CC_DESIGN_SECURITY_CLASSIFICATION ( #58, ( #28 ) ) ;
#108 = FACE_OUTER_BOUND ( 'NONE', #320, .T. ) ;
#109 = CARTESIAN_POINT ( 'NONE',  ( -1.250000000000000222, 0.000000000000000000, 0.000000000000000000 ) ) ;
#110 = ORIENTED_EDGE ( 'NONE', *, *, #86, .F. ) ;
#111 = EDGE_CURVE ( 'NONE', #205, #85, #176, .T. ) ;
#112 = ORIENTED_EDGE ( 'NONE', *, *, #304, .T. ) ;
#113 = COORDINATED_UNIVERSAL_TIME_OFFSET ( 8, 0, .AHEAD. ) ;
#114 = ORIENTED_EDGE ( 'NONE', *, *, #300, .T. ) ;
#115 = APPROVAL ( #288, 'UNSPECIFIED' ) ;
#116 = DATE_AND_TIME ( #64, #96 ) ;
#117 = FACE_OUTER_BOUND ( 'NONE', #256, .T. ) ;
#118 = DATE_TIME_ROLE ( 'classification_date' ) ;
#119 = DIRECTION ( 'NONE',  ( 0.000000000000000000, 0.000000000000000000, 1.000000000000000000 ) ) ;
#120 = FACE_OUTER_BOUND ( 'NONE', #3, .T. ) ;
#121 = CARTESIAN_POINT ( 'NONE',  ( -1.250000000000000222, 0.000000000000000000, 0.000000000000000000 ) ) ;
#122 = CC_DESIGN_PERSON_AND_ORGANIZATION_ASSIGNMENT ( #138, #5, ( #58 ) ) ;
#123 = CYLINDRICAL_SURFACE ( 'NONE', #51, 5.000000000000000888 ) ;
#124 = DIRECTION ( 'NONE',  ( -1.000000000000000000, -0.000000000000000000, -0.000000000000000000 ) ) ;
#125 = AXIS2_PLACEMENT_3D ( 'NONE', #171, #302, #273 ) ;
#126 = CLOSED_SHELL ( 'NONE', ( #16, #241, #93, #281, #161, #312, #236, #76, #32, #258 ) ) ;
#127 = CARTESIAN_POINT ( 'NONE',  ( 1.250000000000000444, 0.000000000000000000, 5.000000000000000000 ) ) ;
#128 = DIRECTION ( 'NONE',  ( 1.000000000000000000, 0.000000000000000000, 0.000000000000000000 ) ) ;
#129 = ORIENTED_EDGE ( 'NONE', *, *, #88, .T. ) ;
#130 = DIRECTION ( 'NONE',  ( 0.000000000000000000, 0.000000000000000000, 1.000000000000000000 ) ) ;
#131 = ORIENTED_EDGE ( 'NONE', *, *, #40, .T. ) ;
#132 = CARTESIAN_POINT ( 'NONE',  ( 0.000000000000000000, 0.000000000000000000, 0.000000000000000000 ) ) ;
#133 = EDGE_CURVE ( 'NONE', #260, #205, #151, .T. ) ;
#134 = EDGE_LOOP ( 'NONE', ( #185, #129, #35, #139 ) ) ;
#135 = PERSON_AND_ORGANIZATION ( #98, #248 ) ;
#136 = CARTESIAN_POINT ( 'NONE',  ( -3.000000000000000000, 0.000000000000000000, 0.000000000000000000 ) ) ;
#137 = ORIENTED_EDGE ( 'NONE', *, *, #133, .T. ) ;
#138 = PERSON_AND_ORGANIZATION ( #98, #248 ) ;
#139 = ORIENTED_EDGE ( 'NONE', *, *, #291, .F. ) ;
#140 = LOCAL_TIME ( 17, 5, 38.00000000000000000, #83 ) ;
#141 = APPLICATION_CONTEXT ( 'configuration controlled 3d designs of mechanical parts and assemblies' ) ;
#142 = CARTESIAN_POINT ( 'NONE',  ( 1.250000000000000444, 0.000000000000000000, 0.000000000000000000 ) ) ;
#143 = DIRECTION ( 'NONE',  ( 0.000000000000000000, 0.000000000000000000, 1.000000000000000000 ) ) ;
#144 = DIRECTION ( 'NONE',  ( 0.000000000000000000, 0.000000000000000000, 1.000000000000000000 ) ) ;
#145 = APPROVAL ( #297, 'UNSPECIFIED' ) ;
#146 = MANIFOLD_SOLID_BREP ( 'Ðý×', #126 ) ;
#147 = FACE_OUTER_BOUND ( 'NONE', #183, .T. ) ;
#148 = DIRECTION ( 'NONE',  ( 0.000000000000000000, 0.000000000000000000, 1.000000000000000000 ) ) ;
#149 = CARTESIAN_POINT ( 'NONE',  ( 3.000000000000000000, 0.000000000000000000, 0.000000000000000000 ) ) ;
#150 = EDGE_CURVE ( 'NONE', #260, #187, #42, .T. ) ;
#151 = CIRCLE ( 'NONE', #36, 5.000000000000000888 ) ;
#152 = CIRCLE ( 'NONE', #332, 5.000000000000000888 ) ;
#153 = AXIS2_PLACEMENT_3D ( 'NONE', #142, #56, #119 ) ;
#154 = DIRECTION ( 'NONE',  ( -1.000000000000000000, -0.000000000000000000, -0.000000000000000000 ) ) ;
#155 = ORIENTED_EDGE ( 'NONE', *, *, #150, .F. ) ;
#156 = ORIENTED_EDGE ( 'NONE', *, *, #150, .T. ) ;
#157 = DIRECTION ( 'NONE',  ( 0.000000000000000000, 0.000000000000000000, 1.000000000000000000 ) ) ;
#158 = DIRECTION ( 'NONE',  ( 0.000000000000000000, 0.000000000000000000, -1.000000000000000000 ) ) ;
#159 = ORIENTED_EDGE ( 'NONE', *, *, #133, .F. ) ;
#160 = APPROVAL_DATE_TIME ( #242, #145 ) ;
#161 = ADVANCED_FACE ( 'NONE', ( #249 ), #172, .F. ) ;
#162 = CARTESIAN_POINT ( 'NONE',  ( 3.000000000000000000, 0.000000000000000000, 5.000000000000001776 ) ) ;
#163 = CIRCLE ( 'NONE', #101, 12.69999999999999929 ) ;
#164 = AXIS2_PLACEMENT_3D ( 'NONE', #103, #301, #104 ) ;
#165 = COORDINATED_UNIVERSAL_TIME_OFFSET ( 8, 0, .AHEAD. ) ;
#166 = DIRECTION ( 'NONE',  ( -1.000000000000000000, -0.000000000000000000, -0.000000000000000000 ) ) ;
#167 = PRODUCT_RELATED_PRODUCT_CATEGORY ( 'detail', '', ( #61 ) ) ;
#168 = DATE_AND_TIME ( #33, #38 ) ;
#169 = ORIENTED_EDGE ( 'NONE', *, *, #86, .T. ) ;
#170 = ORIENTED_EDGE ( 'NONE', *, *, #21, .T. ) ;
#171 = CARTESIAN_POINT ( 'NONE',  ( 3.000000000000000000, 0.000000000000000000, 0.000000000000000000 ) ) ;
#172 = CYLINDRICAL_SURFACE ( 'NONE', #26, 5.000000000000000888 ) ;
#173 = PRODUCT_DEFINITION ( 'UNKNOWN', '', #28, #226 ) ;
#174 = CIRCLE ( 'NONE', #97, 5.000000000000001776 ) ;
#175 = DIRECTION ( 'NONE',  ( -1.000000000000000000, -0.000000000000000000, -0.000000000000000000 ) ) ;
#176 = LINE ( 'NONE', #276, #74 ) ;
#177 = DIRECTION ( 'NONE',  ( 0.000000000000000000, 0.000000000000000000, 1.000000000000000000 ) ) ;
#178 = CIRCLE ( 'NONE', #293, 5.000000000000000000 ) ;
#179 = DIRECTION ( 'NONE',  ( -0.000000000000000000, 0.000000000000000000, 1.000000000000000000 ) ) ;
#180 = CC_DESIGN_PERSON_AND_ORGANIZATION_ASSIGNMENT ( #10, #57, ( #28 ) ) ;
#181 = AXIS2_PLACEMENT_3D ( 'NONE', #282, #310, #179 ) ;
#182 = AXIS2_PLACEMENT_3D ( 'NONE', #106, #50, #157 ) ;
#183 = EDGE_LOOP ( 'NONE', ( #79, #156, #112, #318 ) ) ;
#184 = PERSON_AND_ORGANIZATION ( #98, #248 ) ;
#185 = ORIENTED_EDGE ( 'NONE', *, *, #334, .T. ) ;
#186 = APPROVAL_ROLE ( '' ) ;
#187 = VERTEX_POINT ( 'NONE', #67 ) ;
#188 = DIRECTION ( 'NONE',  ( 0.000000000000000000, 0.000000000000000000, 1.000000000000000000 ) ) ;
#189 = COORDINATED_UNIVERSAL_TIME_OFFSET ( 8, 0, .AHEAD. ) ;
#190 = ORIENTED_EDGE ( 'NONE', *, *, #70, .T. ) ;
#191 = EDGE_CURVE ( 'NONE', #30, #81, #213, .T. ) ;
#192 = ORIENTED_EDGE ( 'NONE', *, *, #105, .F. ) ;
#193 = AXIS2_PLACEMENT_3D ( 'NONE', #136, #71, #144 ) ;
#194 = DIRECTION ( 'NONE',  ( 0.000000000000000000, 0.000000000000000000, 1.000000000000000000 ) ) ;
#195 = DIRECTION ( 'NONE',  ( -1.000000000000000000, -0.000000000000000000, -0.000000000000000000 ) ) ;
#196 = PLANE ( 'NONE',  #197 ) ;
#197 = AXIS2_PLACEMENT_3D ( 'NONE', #18, #303, #69 ) ;
#198 = DIRECTION ( 'NONE',  ( 0.000000000000000000, 0.000000000000000000, 1.000000000000000000 ) ) ;
#199 = LINE ( 'NONE', #99, #46 ) ;
#200 = EDGE_LOOP ( 'NONE', ( #287, #283, #78, #131 ) ) ;
#201 = CC_DESIGN_DATE_AND_TIME_ASSIGNMENT ( #295, #8, ( #173 ) ) ;
#202 = ORIENTED_EDGE ( 'NONE', *, *, #88, .F. ) ;
#203 = DIRECTION ( 'NONE',  ( 0.000000000000000000, 0.000000000000000000, -1.000000000000000000 ) ) ;
#204 =( NAMED_UNIT ( * ) PLANE_ANGLE_UNIT ( ) SI_UNIT ( $, .RADIAN. ) );
#205 = VERTEX_POINT ( 'NONE', #41 ) ;
#206 = AXIS2_PLACEMENT_3D ( 'NONE', #149, #17, #198 ) ;
#207 = LOCAL_TIME ( 17, 5, 38.00000000000000000, #189 ) ;
#208 = EDGE_CURVE ( 'NONE', #23, #4, #269, .T. ) ;
#209 = PERSON_AND_ORGANIZATION ( #98, #248 ) ;
#210 = ORIENTED_EDGE ( 'NONE', *, *, #251, .T. ) ;
#211 = CALENDAR_DATE ( 2020, 22, 12 ) ;
#212 = VERTEX_POINT ( 'NONE', #252 ) ;
#213 = CIRCLE ( 'NONE', #125, 5.000000000000001776 ) ;
#214 = CIRCLE ( 'NONE', #193, 12.69999999999999929 ) ;
#215 = PERSON_AND_ORGANIZATION_ROLE ( 'design_owner' ) ;
#216 = PLANE ( 'NONE',  #29 ) ;
#217 = CALENDAR_DATE ( 2020, 22, 12 ) ;
#218 = CYLINDRICAL_SURFACE ( 'NONE', #239, 12.69999999999999929 ) ;
#219 = DIRECTION ( 'NONE',  ( 0.000000000000000000, 0.000000000000000000, -1.000000000000000000 ) ) ;
#220 = CARTESIAN_POINT ( 'NONE',  ( -1.614212418857619014, 0.000000000000000000, 0.000000000000000000 ) ) ;
#221 = APPROVAL_PERSON_ORGANIZATION ( #91, #72, #319 ) ;
#222 = DIRECTION ( 'NONE',  ( 0.000000000000000000, 0.000000000000000000, 1.000000000000000000 ) ) ;
#223 = DIRECTION ( 'NONE',  ( -1.000000000000000000, -0.000000000000000000, -0.000000000000000000 ) ) ;
#224 = PLANE ( 'NONE',  #181 ) ;
#225 = ADVANCED_BREP_SHAPE_REPRESENTATION ( 'Q-AZHWP-10-355-M', ( #146, #238 ), #45 ) ;
#226 = DESIGN_CONTEXT ( 'detailed design', #82, 'design' ) ;
#227 = CC_DESIGN_PERSON_AND_ORGANIZATION_ASSIGNMENT ( #184, #215, ( #61 ) ) ;
#228 = EDGE_LOOP ( 'NONE', ( #37, #114, #284, #192 ) ) ;
#229 = CC_DESIGN_APPROVAL ( #115, ( #173 ) ) ;
#230 = CARTESIAN_POINT ( 'NONE',  ( -1.250000000000000222, 5.000000000000000000, 0.000000000000000000 ) ) ;
#231 = ORIENTED_EDGE ( 'NONE', *, *, #21, .F. ) ;
#232 = DIRECTION ( 'NONE',  ( 1.000000000000000000, 0.000000000000000000, 0.000000000000000000 ) ) ;
#233 = ORIENTED_EDGE ( 'NONE', *, *, #334, .F. ) ;
#234 = CARTESIAN_POINT ( 'NONE',  ( -1.250000000000000222, 6.123233995736767268E-16, -5.000000000000000888 ) ) ;
#235 = EDGE_LOOP ( 'NONE', ( #231, #54 ) ) ;
#236 = ADVANCED_FACE ( 'NONE', ( #275, #333 ), #196, .F. ) ;
#237 = AXIS2_PLACEMENT_3D ( 'NONE', #19, #124, #222 ) ;
#238 = AXIS2_PLACEMENT_3D ( 'NONE', #132, #177, #232 ) ;
#239 = AXIS2_PLACEMENT_3D ( 'NONE', #327, #94, #194 ) ;
#240 = APPLICATION_PROTOCOL_DEFINITION ( 'international standard', 'config_control_design', 1994, #82 ) ;
#241 = ADVANCED_FACE ( 'NONE', ( #147 ), #123, .F. ) ;
#242 = DATE_AND_TIME ( #55, #207 ) ;
#243 = AXIS2_PLACEMENT_3D ( 'NONE', #230, #22, #158 ) ;
#244 = PERSON_AND_ORGANIZATION ( #98, #248 ) ;
#245 = FACE_OUTER_BOUND ( 'NONE', #134, .T. ) ;
#246 = VERTEX_POINT ( 'NONE', #127 ) ;
#247 = FACE_OUTER_BOUND ( 'NONE', #228, .T. ) ;
#248 = ORGANIZATION ( 'UNSPECIFIED', 'UNSPECIFIED', '' ) ;
#249 = FACE_OUTER_BOUND ( 'NONE', #200, .T. ) ;
#250 = DIRECTION ( 'NONE',  ( 1.000000000000000000, 0.000000000000000000, 0.000000000000000000 ) ) ;
#251 = EDGE_CURVE ( 'NONE', #254, #309, #313, .T. ) ;
#252 = CARTESIAN_POINT ( 'NONE',  ( 1.250000000000000444, 6.123233995736766282E-16, -5.000000000000000000 ) ) ;
#253 = AXIS2_PLACEMENT_3D ( 'NONE', #9, #292, #89 ) ;
#254 = VERTEX_POINT ( 'NONE', #272 ) ;
#255 =( NAMED_UNIT ( * ) SI_UNIT ( $, .STERADIAN. ) SOLID_ANGLE_UNIT ( ) );
#256 = EDGE_LOOP ( 'NONE', ( #233, #49 ) ) ;
#257 = CARTESIAN_POINT ( 'NONE',  ( 3.000000000000000000, 0.000000000000000000, 0.000000000000000000 ) ) ;
#258 = ADVANCED_FACE ( 'NONE', ( #259 ), #48, .F. ) ;
#259 = FACE_OUTER_BOUND ( 'NONE', #299, .T. ) ;
#260 = VERTEX_POINT ( 'NONE', #234 ) ;
#261 = PERSON_AND_ORGANIZATION ( #98, #248 ) ;
#262 = CYLINDRICAL_SURFACE ( 'NONE', #274, 12.69999999999999929 ) ;
#263 = SHAPE_DEFINITION_REPRESENTATION ( #294, #225 ) ;
#264 = CARTESIAN_POINT ( 'NONE',  ( 3.000000000000000000, 6.123233995736768255E-16, -5.000000000000001776 ) ) ;
#265 = APPROVAL_STATUS ( 'not_yet_approved' ) ;
#266 = CARTESIAN_POINT ( 'NONE',  ( -3.000000000000000000, 0.000000000000000000, 0.000000000000000000 ) ) ;
#267 = APPROVAL_ROLE ( '' ) ;
#268 = ORIENTED_EDGE ( 'NONE', *, *, #208, .T. ) ;
#269 = CIRCLE ( 'NONE', #206, 12.69999999999999929 ) ;
#270 = EDGE_CURVE ( 'NONE', #205, #260, #152, .T. ) ;
#271 = CARTESIAN_POINT ( 'NONE',  ( 3.000000000000000000, 0.000000000000000000, 0.000000000000000000 ) ) ;
#272 = CARTESIAN_POINT ( 'NONE',  ( -3.000000000000000000, 0.000000000000000000, 12.69999999999999929 ) ) ;
#273 = DIRECTION ( 'NONE',  ( 0.000000000000000000, 0.000000000000000000, 1.000000000000000000 ) ) ;
#274 = AXIS2_PLACEMENT_3D ( 'NONE', #92, #6, #60 ) ;
#275 = FACE_BOUND ( 'NONE', #235, .T. ) ;
#276 = CARTESIAN_POINT ( 'NONE',  ( -1.614212418857619014, 0.000000000000000000, 5.000000000000000888 ) ) ;
#277 = DIRECTION ( 'NONE',  ( -1.000000000000000000, -0.000000000000000000, -0.000000000000000000 ) ) ;
#278 = VECTOR ( 'NONE', #154, 1000.000000000000000 ) ;
#279 = CC_DESIGN_APPROVAL ( #72, ( #58 ) ) ;
#280 = CARTESIAN_POINT ( 'NONE',  ( -3.000000000000000000, 1.555301434917138433E-15, -12.69999999999999929 ) ) ;
#281 = ADVANCED_FACE ( 'NONE', ( #108 ), #224, .F. ) ;
#282 = CARTESIAN_POINT ( 'NONE',  ( 1.250000000000000222, 5.000000000000000000, 0.000000000000000000 ) ) ;
#283 = ORIENTED_EDGE ( 'NONE', *, *, #70, .F. ) ;
#284 = ORIENTED_EDGE ( 'NONE', *, *, #11, .T. ) ;
#285 = DIRECTION ( 'NONE',  ( -1.000000000000000000, -0.000000000000000000, -0.000000000000000000 ) ) ;
#286 = APPROVAL_PERSON_ORGANIZATION ( #209, #115, #186 ) ;
#287 = ORIENTED_EDGE ( 'NONE', *, *, #300, .F. ) ;
#288 = APPROVAL_STATUS ( 'not_yet_approved' ) ;
#289 = EDGE_LOOP ( 'NONE', ( #190, #316 ) ) ;
#290 = APPROVAL_DATE_TIME ( #168, #115 ) ;
#291 = EDGE_CURVE ( 'NONE', #4, #254, #2, .T. ) ;
#292 = DIRECTION ( 'NONE',  ( -1.000000000000000000, -0.000000000000000000, -0.000000000000000000 ) ) ;
#293 = AXIS2_PLACEMENT_3D ( 'NONE', #31, #24, #130 ) ;
#294 = PRODUCT_DEFINITION_SHAPE ( 'NONE', 'NONE',  #173 ) ;
#295 = DATE_AND_TIME ( #217, #140 ) ;
#296 = FACE_BOUND ( 'NONE', #289, .T. ) ;
#297 = APPROVAL_STATUS ( 'not_yet_approved' ) ;
#298 = DIRECTION ( 'NONE',  ( -0.000000000000000000, 0.000000000000000000, 1.000000000000000000 ) ) ;
#299 = EDGE_LOOP ( 'NONE', ( #1, #159 ) ) ;
#300 = EDGE_CURVE ( 'NONE', #30, #212, #314, .T. ) ;
#301 = DIRECTION ( 'NONE',  ( -1.000000000000000000, -0.000000000000000000, -0.000000000000000000 ) ) ;
#302 = DIRECTION ( 'NONE',  ( -1.000000000000000000, -0.000000000000000000, -0.000000000000000000 ) ) ;
#303 = DIRECTION ( 'NONE',  ( 1.000000000000000000, 0.000000000000000000, 0.000000000000000000 ) ) ;
#304 = EDGE_CURVE ( 'NONE', #187, #85, #178, .T. ) ;
#305 = DIRECTION ( 'NONE',  ( 0.000000000000000000, 0.000000000000000000, 1.000000000000000000 ) ) ;
#306 = APPLICATION_PROTOCOL_DEFINITION ( 'international standard', 'config_control_design', 1994, #141 ) ;
#307 = ORIENTED_EDGE ( 'NONE', *, *, #111, .T. ) ;
#308 = UNCERTAINTY_MEASURE_WITH_UNIT (LENGTH_MEASURE( 1.000000000000000082E-05 ), #73, 'distance_accuracy_value', 'NONE');
#309 = VERTEX_POINT ( 'NONE', #280 ) ;
#310 = DIRECTION ( 'NONE',  ( -1.000000000000000000, 0.000000000000000000, -0.000000000000000000 ) ) ;
#311 = ORIENTED_EDGE ( 'NONE', *, *, #40, .F. ) ;
#312 = ADVANCED_FACE ( 'NONE', ( #335 ), #80, .F. ) ;
#313 = CIRCLE ( 'NONE', #237, 12.69999999999999929 ) ;
#314 = LINE ( 'NONE', #53, #278 ) ;
#315 = CC_DESIGN_APPROVAL ( #145, ( #28 ) ) ;
#316 = ORIENTED_EDGE ( 'NONE', *, *, #191, .T. ) ;
#317 = PERSON_AND_ORGANIZATION_ROLE ( 'creator' ) ;
#318 = ORIENTED_EDGE ( 'NONE', *, *, #111, .F. ) ;
#319 = APPROVAL_ROLE ( '' ) ;
#320 = EDGE_LOOP ( 'NONE', ( #311, #7 ) ) ;
#321 = APPROVAL_DATE_TIME ( #116, #72 ) ;
#322 = VECTOR ( 'NONE', #329, 1000.000000000000000 ) ;
#323 = CARTESIAN_POINT ( 'NONE',  ( 3.000000000000000000, 0.000000000000000000, 12.69999999999999929 ) ) ;
#324 = CIRCLE ( 'NONE', #59, 5.000000000000000000 ) ;
#325 = CARTESIAN_POINT ( 'NONE',  ( 3.000000000000000000, 12.69999999999999929, 0.000000000000000000 ) ) ;
#326 = SECURITY_CLASSIFICATION_LEVEL ( 'unclassified' ) ;
#327 = CARTESIAN_POINT ( 'NONE',  ( -1.614212418857619014, 0.000000000000000000, 0.000000000000000000 ) ) ;
#328 = APPROVAL_PERSON_ORGANIZATION ( #135, #145, #267 ) ;
#329 = DIRECTION ( 'NONE',  ( -1.000000000000000000, -0.000000000000000000, -0.000000000000000000 ) ) ;
#330 = CC_DESIGN_PERSON_AND_ORGANIZATION_ASSIGNMENT ( #244, #317, ( #173 ) ) ;
#331 = LINE ( 'NONE', #14, #102 ) ;
#332 = AXIS2_PLACEMENT_3D ( 'NONE', #109, #128, #203 ) ;
#333 = FACE_OUTER_BOUND ( 'NONE', #12, .T. ) ;
#334 = EDGE_CURVE ( 'NONE', #4, #23, #163, .T. ) ;
#335 = FACE_OUTER_BOUND ( 'NONE', #65, .T. ) ;
ENDSEC;
END-ISO-10303-21;
